Song name
# A B C D E F G H I J K L M N O P Q R S T U V W X Y Z

Misc Television - Terra Nova Theme tab

Standard tuning eadgbe
Enjoy


E |-----------------|-------------------|----------------|
B |-----------------|-------------------|-----------10---|
G |--10-9-7--2--5---|--10-9--7--2--6----|--10-9--7-------|
D |-----------------|-------------------|----------------|
A |-----------------|-------------------|----------------|
E |-----------------|-------------------|----------------|


-------|-10-8--6--1--5---||
--13-5-|-----------------||
-------|-----------------||
-------|-----------------||
-------|-----------------||
-------|-----------------||
Tap to rate this tab
# A B C D E F G H I J K L M N O P Q R S T U V W X Y Z