Song name
# A B C D E F G H I J K L M N O P Q R S T U V W X Y Z

Misc Television - Community - Abeds Halloween Song tab

abed's halloween song


community


TRANSCRIBED BY RUDY GUZMAN


guzman_84@hotmail.com


e:------|
B:------|
G:------|
D:------|
A:------|
E:-14\--|

   gt1                                             
e:-------------------------------------------------------------|
B:-------13------13-----------13----13---------13----13--13/17-|
G:-12h14----14------14--12h14----14------12h14----14-----------|
D:-------------------------------------------------------------|
A:-------------------------------------------------------------|
E:-------------------------------------------------------------|
  gt2
e:-------------------------------------------------------------|
B:-8--8--8--8--8--8--8--8--8--8--8--8--8--8--8--8--8--8--8--8--|
G:-9--9--9--9--9--9--9--9--9--9--9--9--9--9--9--9--9--9--9--9--|
D:-10-10-10-10-10-10-10-10-10-10-10-10-10-10-10-10-10-10-10-10-|
A:-10-10-10-10-10-10-10-10-10-10-10-10-10-10-10-10-10-10-10-10-|
E:-8--8--8--8--8--8--8--8--8--8--8--8--8--8--8--8--8--8--8--8--|

  gt1
e:-15b---------------------------|
B:------16b--13b-----------------|
G:----------------14b--12~~~~~~--|
D:-------------------------------|
A:-------------------------------|
E:-------------------------------|
  gt2
e:-----------------------|
B:-----------------------|
G:-9---6----7-----6----4-|
D:-9---6----8-----7----5-|
A:-7---4----8-----7----5-|
E:----------6-----5----3-|

   abed's humming
e:-------------------------------------------------------------|
B:-------13------13-----------13----13---------13----13--13/17-|
G:-12h14----14------14--12h14----14------12h14----14-----------|
D:-------------------------------------------------------------|
A:-------------------------------------------------------------|
E:-------------------------------------------------------------|

e:-15b---------------------------|
B:------16b--13b-----------------|
G:----------------14b--12~~~~~~--|
D:-------------------------------|
A:-------------------------------|
E:-------------------------------|



hillo son mex

15/04/12
Tap to rate this tab
# A B C D E F G H I J K L M N O P Q R S T U V W X Y Z