Song name
# A B C D E F G H I J K L M N O P Q R S T U V W X Y Z

Misc Television - Lizzie Mcguire - End Theme tab

This is the theme played at the shows end credits. Its the instrumental version of 
the intro theme (the guitar plays the vocal melody)

CLEANISH GUITAR
LET NOTES RING TOGETHER
e|-------2-----------------------------------------------------------------|
B|---------3---------------------------------------------------------------|
G|-----------2-------------------------------------------------------------|
D|---0---------0-----------------------------------------------------------|
A|-------------------------------------------------------------------------|
E|----(D CHORD)------------------------------------------------------------|

solo begins
e|-----------HOLD----------------------------------------------------------|
B|-----5-5---5~~~~h7----------5-5----5~~-----------------------------------|
G|--/6-----6---------------/6-----6-----6--4-(h6)6~~~~---------------------|
D|-------------------------------------------------------------------------|
A|-------------------------------------------------------------------------|
E|-------------------------------------------------------------------------|


e|-----------HOLD----------------------------------------------------------|
B|-----5-5---5~~~~h7---------5-5----5--------------------------------------|
G|--/6-----6--------------/6-----6----/6--/4--(2)2~~~~~~-------------------|
D|-------------------------------------------------------------------------|
A|-------------------------------------------------------------------------|
E|-------------------------------------------------------------------------|


e|--(5)5~~~--7p5-----------------------------------------------------------|
B|---------------5~~~-------------------------------HOLD-------------------|
G|-----------------------6-7~-6h7p6-/4-(2)2~~~--2/4--0----(2)2/4--2~~~~~~--|
D|-------------------------------------------------------------------------|
A|-------------------------------------------------------------------------|
E|-------------------------------------------------------------------------|

Tap to rate this tab
 
# A B C D E F G H I J K L M N O P Q R S T U V W X Y Z