Song name
# A B C D E F G H I J K L M N O P Q R S T U V W X Y Z

Misc Television - First Wave Theme tab

First Wave Intro theme
Clean guitar w/ tremelo effect
e|-----------------------------------------------------------------------|
B|-----------------------------------------------------------------------|
G|-----------------------------------------------------------------------|
D|------10~~~~------10-/12-9~~~----------14~~~~-------14-/15-11~~~-------|
A|--7h8---------7h8----------------10h12--------10h12--------------------|
E|-----------------------------------------------------------------------|


First Wave Outro Theme/End credits
e|-----------------------------------------------------------------------|
B|-----------------------------------------------------------------------|
G|-----------------------------------------------------------------------|
D|------10~~~~------10-/12-9~~~----------14~~~~-------14-/15-11~~~-------|
A|--7h8---------7h8----------------10h12--------10h12--------------------|
E|-----------------------------------------------------------------------|

e|-----------------------------------------------------------------------|
B|-----------------------------------------------------------------------|
G|-----------------------------------------------------------------------|
D|------10~~~~------10-/12-9~~~----------14~~~~-------14-/15-11~~~-------|
A|--7h8---------7h8----------------10h12--------10h12--------------------|
E|-----------------------------------------------------------------------|

e|-----------------------------------------------------------------------|
B|-----------------------------------------------------------------------|
G|--------x---12b14~~~~--10~~~~-----15b17~~~~----13b15--13~~~------------|
D|------x----------------------------------------------------------------|
A|----x------------------------------------------------------------------|
E|-----RAKE--------------------------------------------------------------|

e|-----------------------------------------------------------------------|
B|-----------------------------------------------------------------------|
G|-----------------------------------------------------------------------|
D|------11~~~-----11-/13-10~~~~------------------------------------------|
A|--8h9-------8h9--------------------------------------------------------|
E|-----------------------------------------------------------------------|
Tap to rate this tab
# A B C D E F G H I J K L M N O P Q R S T U V W X Y Z