Song name
# A B C D E F G H I J K L M N O P Q R S T U V W X Y Z

Misc Television - Some Mothers Do Ave Em Theme tab

e|-----------------------------------------------------------------------0----|
B|-------1---0-0---------3-3-1-0-------1-0---1-0---------------------0-1---3--|
G|-0-2-0---------0-0-2-----------2-0-------2-------0-2---2-0-----2-2----------|
D|-----------------------------------------------------3-----2----------------|
A|----------------------------------------------------------------------------|
E|----------------------------------------------------------------------------|

e|----------------------------------------------------------------------------|
B|-----2-2-2-----------------------1------------------------------------------|
G|-1-1-------3-1-3-1-----1-0--------------------------------------------------|
D|-------------------3-------4-3-2-1------------------------------------------|
A|----------------------------------------------------------------------------|
E|----------------------------------------------------------------------------|
Tap to rate this tab
# A B C D E F G H I J K L M N O P Q R S T U V W X Y Z