Song name
# A B C D E F G H I J K L M N O P Q R S T U V W X Y Z

Misc Television - Jefferton Alive Theme tab

                             Jefferton Alive!
                                  a.k.a
                          The theme song from 
                         Tom Goes to the Mayor

I learned it from this vid:

http://www.youtube.com/watch?v=suJCWkgwBr8

^ A great reference if you need an audio and visual demonstration. 

If for some reason the link doesn't work you Youtube: Jefferton Alive guitar

This is the closest I could get from just watching and listening
and trying to play along. 

e------------13~--------------13~--13b15b13-11----------------------]
B-12-13-15--------12-13-15---------------------13-------12b13-12----]
G----------12--------------12---------------------12~~-----------12-]
D-------------------------------------------------------------------]
A-------------------------------------------------------------------]
E-------------------------------------------------------------------]

e-15-17-18--17-15--------------------------------------13~----------]
B-----------------18---18b20--18-15--------12-13-15-----------------]
G-----------------------------------17--------------12--------------]
D-------------------------------------------------------------------]
A-------------------------------------------------------------------]
E-------------------------------------------------------------------]

e-19-19-19 19/17-15---------------]
B-------------------18~~----------]
G---------------------------------]
D---------------------------------]
A---------------------------------]
E---------------------------------]

    4 times each 
e--20p15----15-|-19p15----15-|-18p15----15-|--20p17----17----]
B--------18----|-------17----|-------16----|--------18-------]
G--------------|-------------|-------------|-----------------]
D--------------|-------------|-------------|-----------------]
A--------------|-------------|-------------|-----------------]
E--------------|-------------|-------------|-----------------]

e-----------------------------------11~---11-13~---13-15/---------]
B----------15~~---16--13--16b18~~---------------------------------]
G--17/--13--------------------------------------------------------]
D-----------------------------------------------------------------]
A-----------------------------------------------------------------]
E-----------------------------------------------------------------]

Tabbed By: Jared Scherer
FEED GOD CABBAGE
Tap to rate this tab
# A B C D E F G H I J K L M N O P Q R S T U V W X Y Z