Song name
# A B C D E F G H I J K L M N O P Q R S T U V W X Y Z

Misc Television - Its Always Sunny In Philadelphia Theme tab

Its Always Sunny in philidephia theme

This is not the full track (temptation sensation by Heinz Kiessling)
they chopped it up to fit into a thirty second credit intro

Now you can play along with the intro when the show comes on

TUNING - EADGBE
|--------16-19p17-16------16~~-/21~~~~~~----------------------------------|
|-------------------17-------------------17~~~~~~-------------------------|
|---------------------18--------------------------------------------------|
|-------------------------------------------------------------------------|
|-------------------------------------------------------------------------|
|-------------------------------------------------------------------------|

|--------16-19p17-16------------------------------------------------------|
|-------------------17----------------------------------------------------|
|---------------------18---18~~~~-16~~~~~~~-(14~~~~)----------------------|
|-------------------------------------------------------------------------|
|-------------------------------------------------------------------------|
|-------------------------------------------------------------------------|

|-----------17------------------------------------------------------------|
|-------14------15p14~~~~-17p14~~~~---14~~~~------------------------------|
|--------------------------------------------16~~~~~~~-(14~~~~)-----------|
|-------------------------------------------------------------------------|
|-------------------------------------------------------------------------|
|-------------------------------------------------------------------------|

|-----------17----------------17~~~~~~~~~~~~~~~~~~~~~~~~~~~~~~~~~~--------|
|-------15------15-14~~---17---HOLD-NOTE-UNTIL-END-OF-CREDITS-------------|
|-------------------------------------------------------------------------|
|-------------------------------------------------------------------------|
|-------------------------------------------------------------------------|
|-------------------------------------------------------------------------|
Tap to rate this tab
# A B C D E F G H I J K L M N O P Q R S T U V W X Y Z