Song name
# A B C D E F G H I J K L M N O P Q R S T U V W X Y Z

Misc Television - How I Met Your Mother tab

Lead Guitar
e|---5-7-5-------------------------------------------------------------------|
B|-5---------5-7-5-----------------------------------------------------------|
G|----------------------4-6---7-6-------6------------------------------------|
D|-------------------7------------9-7-9---9-7-7------------------------------|
A|---------------------------------------------------------------------------|
E|---------------------------------------------------------------------------|

Rhythm Guitar
e|-------------5----4----2---------------------------------------------------|
B|-------------5----5----2----------7----5----3------------------------------|
G|-4-----1-----6----6----2----1-----7----6----4----4----6--------------------|
D|-5-----2-----7----6----4----2-----7----6----4----5----7--------------------|
A|-5-----2-----7----4----4----2-----5----4----2----5----7--------------------|
E|-3-----0-----5---------2----0---------------------3----5-------------------|
Tap to rate this tab
# A B C D E F G H I J K L M N O P Q R S T U V W X Y Z