Song name
# A B C D E F G H I J K L M N O P Q R S T U V W X Y Z

Misc Television - White Collar Theme tab

                       WHITE COLLAR THEME SONG

Tabbed by LesThanPaul
Standard Tuning

Pretty short and simple theme song from an awesome TV series. It's
quick, so the number of times a note appears may not be exact, but 
this is a pretty good idea of what's going on.

e|--------------------------------------------------------------|
B|--------------------------------------------------------------|
G|--------------------------------------------------------------|
D|--------------------------------------------------------------|
A|-5h7-7--5h7-5-7-5-7-5-----------------------------------------|
E|----------------------7-5-0-0-0-0-----------------------------|

e|--------------------------------------------------------------|
B|--------------------------------------------------------------|
G|--------------------------------------------------------------|
D|--------------5---5-7b8r7-5-----------------------------------|
A|-XX-5h7-7--77---7-----------5h7-77-5--------------------------|
E|-------------------------------------5~-XX-0------------------|

Please leave comments/corrections and rate!
Tap to rate this tab
 
# A B C D E F G H I J K L M N O P Q R S T U V W X Y Z