Song name
# A B C D E F G H I J K L M N O P Q R S T U V W X Y Z

Misc Television - Family Guy Theme tab

  "It seems today that all we see is violence in movies......................."
e|----5-4-5-2-4-3-4-0-3-2-3-2-3-5-3-2-2-1-2-0-0-1-2-2-3-2-1-2-7-2---5--7-6-7-6-|
B|-----------------------------------------3---3-3---------------3-0-----------|
G|--2--------------------------------------------------------------------------|
D|-----------------------------------------------------------------------------|
A|-----------------------------------------------------------------------------|
E|-----------------------------------------------------------------------------|

  "Family guy, lucky there's a man who, positively can do..."
e|-10-8-7-3~-3-2-3-2-3-5-2-1-2-1-2-3-0-0-0-2-2-7-5--6--7--8--10~---------------|
B|------------------------------------4-4---3----------------------------------|
G|-----------------------------------------------------------------------------|
D|-----------------------------------------------------------------------------|
A|-----------------------------------------------------------------------------|
E|--------------------------------------------------------------------0--------|

The little end part is the instrumental.
I got this from my saxophone sheet music, and it sounds accurate. It was my first tab 
but I hope you liked it :D
Tap to rate this tab
# A B C D E F G H I J K L M N O P Q R S T U V W X Y Z