Song name
# A B C D E F G H I J K L M N O P Q R S T U V W X Y Z

Misc Television - Inspector Gadget Theme tab

Sirens at the beginning:

e|----24-23-------24-23-20--| x2 (bass starts end of second time)
B|-22-------24-22-----------|
G|--------------------------|
D|--------------------------|
A|--------------------------|
E|--------------------------|

Bass intro:

e|---------------------------------------------------------------|
B|---------------------------------------------------------------|
G|--------------------------2-1~--------------------------2-4~---|
D|-------0-2-rest-------0-2------------0-2-rest-------0-2--------|
A|-0-2-3----------0-2-3----------0-2-3----------0-2-3------------|
E|---------------------------------------------------------------|

e|---------------------------------------------------------------|
B|---------------------------------------------------------------|
G|-2-1-------------2-1-------------------------------------------|
D|-----2---5-4---------2-5-4---3-2-----2-------------------------|
A|-------------5-------------5-----2-3---5-3-2-------------------|
E|---------------------------------------------------------------|

Main theme we all know and love, will be repeated
e|---------------------------------------------------------------|
B|---------------------------------------------------------------|
G|-------------------------------------------------14-13~--------|
D|----------12-14----13----12----------------12-14---------------|
A|-12-14-15-------15----14----15----12-14-15---------------------|
E|---------------------------------------------------------------|

e|---------------------------------------------------------------|
B|----------------------------(safe combo sound)-----------------|
G|-----------------------------------\-/-------------------------|
D|----------12-14----13----12---------|--------------------------|
A|-12-14-15-------15----14----15---12-------12-------------------|
E|--------------------------------------12-----------------------|

Main theme again followed by:

e|---------------------------------------------------------------|
B|---------------------------------------------------------------|
G|---------------------------------------------------------------|
D|----------12-14----13----12------------------------------------|
A|-12-14-15-------15----14----15---------------------------------|
E|--------------------------------1-0-1-0-5-4-8-7----------------|

e|---------------------------------------------------------------|
B|---------------------------------------------------------------|
G|-14~----12-14~-----16-16-14-12----14-14-12---------------------|
D|-----15---------14-------------15----------15-14---------------|
A|---------------------------------------------------------------|
E|---------------------------------------------------------------|

e|---------------------------------------------------------------|
B|---------------------------------------------------------------|
G|-14~----12-14~-----16-16-14-12---------------------------------|
D|-----15---------14-------------15-14-14-12---------------------|
A|-------------------------------------------15-14---------------|
E|---------------------------------------------------------------|

Back to Main theme again and then the finale below

e|---------------------------------------------------------------|
B|---------------------------------------------------------------|
G|---------------------------------------------------------------|
D|----------12-14----13----12------------------------------------|
A|-12-14-15-------15----14----15------------------8-7------------|
E|--------------------------------1~-0--5~-4~-8-7----------------|

e|---------------------------------------------------------------|
B|---------------------------------------------------------------|
G|---------------------------------------------------------------|
D|-15-14-13-12---------------------------------------------------|
A|-------------16-15-14-13-12------------------12----------------|
E|----------------------------16-15-14-13~--12-------------------|

Listen to the song for correct rhythms and have fun with it.
Tap to rate this tab
# A B C D E F G H I J K L M N O P Q R S T U V W X Y Z