Song name
# A B C D E F G H I J K L M N O P Q R S T U V W X Y Z

Misc Television - Gravity Falls Theme tab

This tab is based on this video that i found 
>http://www.youtube.com/watch?v=PfgxlRnQWhE&feature=plcp




INTRO

   Dm

e|----------------|----------------|----------------|----------------|
b|----6-----------|----6-----------|----6-----------|----6-----------|
g|------7---7-----|------7---7-----|------5---5-----|------5---5-----|
D|--------7-------|--------7-------|--------7-------|--------7-------|
A|----------------|----------------|----------------|----------------|
E|----------------|----------------|----------------|----------------|


e|----------------|----------------|
b|----5-----------|----5-----------|
g|------6---6-----|------6---6-----|  x2
D|--------7-------|--------7-------|
A|----------------|----------------|
E|----------------|----------------|



RIFF

e|----------------|----------------|----------------|----------------|
b|----------------|----------------|----------------|----------------|
g|-7--9--10-------|--14-12-14------|-7--9--10--9----|9/12--14-12-10--|
D|----------------|-----------10---|----------------|----------------|
A|----------------|----------------|----------------|----------------|
E|----------------|----------------|----------------|----------------|

e|----------------|----------------|----------------|----------------|
b|----------------|----------------|----------------|----------------|
g|-10-10-10--14---|14--12--10------|14-14-14--12----|14--12--10------|
D|----------------|----------------|----------------|----------------|
A|----------------|----------------|----------------|----------------|
E|----------------|----------------|----------------|----------------|

e|----------------|----------------|----------------|----------------|
b|----------------|----------------|----------------|----------------|
g|-10-10-10--14---|14--12--10------|14-14-14--------|18-18-18--------|
D|----------------|----------------|----------------|----------------|
A|----------------|----------------|----------------|----------------|
E|----------------|----------------|----------------|----------------|

e|----------------|----------------|----------------|----------------|
b|----------------|----------------|----------------|----------------|
g|-10-10-10--14---|14--12--10------|15-15-15--12----|15b17--13--17b19|
D|----------------|----------------|----------------|----------------|
A|----------------|----------------|----------------|----------------|
E|----------------|----------------|----------------|----------------|

END

e|----------------|----------------|
b|----6-----------|----5-----5-----|
g|------7---7-----|------6-----7---|
D|--------7-------|--------7-------|
A|----------------|----------------|
E|----------------|----------------|
Tap to rate this tab
# A B C D E F G H I J K L M N O P Q R S T U V W X Y Z