Song name
# A B C D E F G H I J K L M N O P Q R S T U V W X Y Z

Misc Television - Nacion Espn - Lo Que Aprendimos Hoy tab

lo que aprendimos hoy 


nacion ESPN


TRANSCRIBED BY RUDY GUZMAN


guzman_84@hotmail.com


esta cancion esta de fondo al final del programa en la seccion 
"lo que aprendimos hoy"

                                        x5       
e:--------------------------------------|
B:-----------6-5------------------------|
G:---------5-----7-5---------------5~~~-|
D:-----5-7-----------7-5-------5-7------|
A:-5-7-------------------7-5-7----------|
E:--------------------------------------|


e:-------------------------------------------|
B:--9--9--7---9--9--12---9--9--7---9--9--9-9-|
G:--9--9--7---9--9--12---9--9--7---9--9--9-9-|
D:--9--9--7---9--9--12---9--9--7---9--9--9-9-|
A:--7--7--5---7--7--10---7--7--5---7--7--7-7-|
E:-------------------------------------------|

                                        x5       
e:--------------------------------------|
B:-----------6-5------------------------|
G:---------5-----7-5---------------5~~~-|
D:-----5-7-----------7-5-------5-7------|
A:-5-7-------------------7-5-7----------|
E:--------------------------------------|


e:-------------------------------------------|
B:--9--9--7---9--9--12---9--9--7---9--9--9-9-|
G:--9--9--7---9--9--12---9--9--7---9--9--9-9-|
D:--9--9--7---9--9--12---9--9--7---9--9--9-9-|
A:--7--7--5---7--7--10---7--7--5---7--7--7-7-|
E:-------------------------------------------|



hillo son mex

6/08/12
Tap to rate this tab
# A B C D E F G H I J K L M N O P Q R S T U V W X Y Z