Song name
# A B C D E F G H I J K L M N O P Q R S T U V W X Y Z

Misc Television - Maple Leaf Prime Commercial Song tab

This is the piano song played during the most recent Maple Leaf Prime Commercial. 
Personally I think it is a beautiful song.
I couldnt find it played on guitar anywhere so i tabbed it myself. Let me know what you think.

Check the internet and listen to the song to find out the perfect timing but it is 
played fairly slow and steady

Standard tuning, simply drop the low E down 2 steps to C

e|-7-------7-------7---------------------------------------------|
B|-----5-------5-------5---7---8---------------------------------|
G|---------------------------------------------------------------|
D|---------------------------------------------------------------|
A|---------------------------------------------------------------|
C|-4-------------------------------------------------------------|

e|-7-------7-------7---------------------------------------------|
B|-----5-------5-------5---7---8---------------------------------|
G|---------------------------------------------------------------|
D|---------------------------------------------------------------|
A|---------------------------------------------------------------|
C|-0-------------------------------------------------------------|

e|-7-------7-------7---------------------------------------------|
B|-------------------------7---8---------------------------------|
G|-----7-------7-------7-----------------------------------------|
D|---------------------------------------------------------------|
A|---------------------------------------------------------------|
C|-7-------------------------------------------------------------|

e|---------------------------------------------------------------|
B|-7---5---7---5---7---5---7---8---------------------------------|
G|---------------------------------------------------------------|
D|---------------------------------------------------------------|
A|---------------------------------------------------------------|
C|-2-------------------------------------------------------------|

e|---------------------------------------------------------------|
B|-10---7---10---7---10---7---8---7------------------------------|
G|---------------------------------------------------------------|
D|---------------------------------------------------------------|
A|---------------------------------------------------------------|
C|-6-------------------------------------------------------------|

e|-------------------7-------------------------------------------|
B|-10---7---10---7-------7---8---7-------------------------------|
G|---------------------------------------------------------------|
D|---------------------------------------------------------------|
A|---------------------------------------------------------------|
C|-0-------------------------------------------------------------|

e|-5---2---5---2---5---2---3---5---------------------------------|
B|---------------------------------------------------------------|
G|---------------------------------------------------------------|
D|---------------------------------------------------------------|
A|---------------------------------------------------------------|
C|-1-------------------------------------------------------------|

e|---------------------------------------------------------------|
B|-7---5---7-------7---------------------------------------------|
G|-------------7-------7---6---7---------------------------------|
D|---------------------------------------------------------------|
A|---------------------------------------------------------------|
C|-2-------------------------------------------------------------|


e|-7-------7-------7---------------------------------------------|
B|-----8-------8-------5---7---8---------------------------------|
G|---------------------------------------------------------------|
D|---------------------------------------------------------------|
A|---------------------------------------------------------------|
C|-4-------------------------------------------------------------|

e|-7-------7-------7---------------------------------------------|
B|-----8-------8-------5---7---8---------------------------------|
G|---------------------------------------------------------------|
D|---------------------------------------------------------------|
A|---------------------------------------------------------------|
C|-0-------------------------------------------------------------|

e|-7-------7-------7---------------------------------------------|
B|-----8-------8-----------7---8---------------------------------|
G|---------------------7-----------------------------------------|
D|---------------------------------------------------------------|
A|---------------------------------------------------------------|
C|-7-------------------------------------------------------------|

e|---------------------------------------------------------------|
B|-7---5---7---5---7---5------5----8-----------------------------|
G|------------------------7--------------------------------------|
D|---------------------------------------------------------------|
A|---------------------------------------------------------------|
C|-2-------------------------------7-----------------------------|
Tap to rate this tab
 
# A B C D E F G H I J K L M N O P Q R S T U V W X Y Z