Song name
# A B C D E F G H I J K L M N O P Q R S T U V W X Y Z

Misc Television - How Not To Live Your Life tab

-------------------------------------------------------------------------------
                             How Not To Live Your Life Theme Music - Ben Parker
-------------------------------------------------------------------------------
Tabbed by:David Millington      
E-mail:davidmillingtonict@hotmail.co.uk

LISTEN TO SONG TO WORK OUT WHICH PARTS ARE WHICH        

Tuning: Standard

    (RHYTHM PART)
e|---------------------------------------------------------------------------|
B|---------------------------------------------------------------------------|
G|---------------------------------------------------------------------------|
D|--------------------------5------------------------------------------------|(x2)
A|------------------4---------------4---------4------------------------------|
E|--------------5-------5----------------5-----------------------------------|

e|---------------------------------------------------------------------------|
B|---------------------------------------------------------------------------|
G|---------------------------------------------------------------------------|
D|---------------------4-----------------------------------------------------|
A|-------------2---------------2---------2-----------------------------------|
E|---------3-------3----------------3----------------------------------------|

e|---------------------------------------------------------------------------|
B|---------------------------------------------------------------------------|
G|---------------------------------------------------------------------------|
D|-----------------------0---------------------------------------------------|
A|--------------0--------------0---------0-----------------------------------|
E|---------2---------2--------------2----------------------------------------|

e|---------------------------------------------------------------------------|
B|---------------------------------------------------------------------------|
G|---------------------------------------------------------------------------|
D|---------------------------------------------------------------------------|
A|---------------------------------------------------------------------------|
E|---------------------------------------------------------------------------|
   (HIGH PITCHED LEAD PART, played over rhythm)
e|---------------------------------------------------------------------------|
B|---------------------------------------------------------------------------|
G|-------18--------------21p19-------18--------------------------------------|
D|-----------19--------------------------19-------------16-------19-------21-|
A|---------------------------------------------------------------------------|
E|---------------------------------------------------------------------------|

e|---------------------------------------------------------------------------|
B|---------------------------------------------------------------------------|
G|---18-------------------------------------------18----16-------------------|
D|---------------------------------------------------------------------------|
A|---------------------------------------------------------------------------|
E|---------------------------------------------------------------------------|
Tap to rate this tab
 
# A B C D E F G H I J K L M N O P Q R S T U V W X Y Z