Song name
# A B C D E F G H I J K L M N O P Q R S T U V W X Y Z

Misc Television - Family Guy Theme tab

Family Guy Theme


 ~ = vibrato                 tabbed by adamgur96


e|-------------------------------------------------------------------------|
B|-------13-12-13~------12-11-12~------11-10-11-10-11-13-11-10-10-9-10~----|
G|----10------------10--------------10-------------------------------------|
D|-10----------------------------------------------------------------------|
A|-------------------------------------------------------------------------|
E|-------------------------------------------------------------------------|

e|-------------------------------------------------------------|
B|--------------------------------------------15----------13~--|
G|-10-12-12~--10-13~--10-14-14-15-14~---12-14----14------------|
D|--------------------------------------------------15-12------|
A|-------------------------------------------------------------|
E|-------------------------------------------------------------|

e|----------12-13-12--------------------|
B|-15-14-15----------15-13~-------------|
G|--------------------------------------|
D|--------------------------------------|
A|--------------------------------------|
E|--------------------------------------|

e|--------------------------------------------------------------------|
B|-11-10-11-10-11-13~---10-9-10-9-10-11~---8-7-8-7-8-10~---------15~--|
G|------------------------------------------------------------14------|
D|---------------------------------------------------------15---------|
A|--------------------------------------------------------------------|
E|--------------------------------------------------------------------|

e|---8~---9~---10~--12~--13~----------------------------|
B|------------------------------------------------------|
G|---5~---6~---7~---9~---10~--------------2-------------|
D|----------------------------------------3-------------|
A|----------------------------------------3-------------|
E|----------------------------------------1-------------|

The End.

Enjoy!
Tap to rate this tab
# A B C D E F G H I J K L M N O P Q R S T U V W X Y Z