Song name
# A B C D E F G H I J K L M N O P Q R S T U V W X Y Z

Misc Television - Scrubs - Sad Melody tab

e|------------------------------------------------------------------------------------------|
B|1--3--5-5-6-5--3--1----------------------1--3--5-5-6-5--3--1------------------------------|
G|----------------------2--4-5-5-7-5-4-2------------------------4--2--4--5--7--9-7-5--4-2---|
D|------------------------------------------------------------------------------------------|
A|------------------------------------------------------------------------------------------|
E|------------------------------------------------------------------------------------------|


e|------------------5--|
B|---------------------|
G|2--4-5-5-7-5-4-2-----|
D|---------------------|
A|---------------------|
E|---------------------|
Tap to rate this tab
# A B C D E F G H I J K L M N O P Q R S T U V W X Y Z