Song name
# A B C D E F G H I J K L M N O P Q R S T U V W X Y Z

Misc Television - 30 Rock - Jenna Maroney Balls tab

jenna maroney - balls     season 7 episode 2


30 rock


TRANSCRIBED BY RUDY GUZMAN


guzman_84@hotmail.com


2 steps down

:----------------------------------------------|
:----------------------------------------------|
:----------------------------------------------|
:----------------------------------------------|
:-----------2--2-2-2------------------2--2-2-2-|
:-2-2--5-5------------5--0--2-2--5-5-----------|

:----------------------------------------------|
:----------------------------------------------|
:----------------------------------------------|
:----------------------------------------------|
:-----------2--2-2-2------------------2--2-2-2-|
:-2-2--5-5------------5--0--2-2--5-5-----------|

:----------------------------------------------|
:----------------------------------------------|
:----------------------------------------------|
:----------------------------------------------|
:-----------2--2-2-2------------------2--2-2-2-|
:-2-2--5-5------------5--0--2-2--5-5-----------|

:----------------------------------------------|
:----------------------------------------------|
:----------------------------------------------|
:----------------------------------------------|
:-----------2--2-2-2------------------2--2-2-2-|
:-2-2--5-5------------5--0--2-2--5-5-----------|



hillo son mex

14/10/12
Tap to rate this tab
# A B C D E F G H I J K L M N O P Q R S T U V W X Y Z