Song name
# A B C D E F G H I J K L M N O P Q R S T U V W X Y Z

Misc Television - 30 Rock - Kenneth Song tab

kenneth song preformed by Bryan Cranston season 7 episode 2


30 rock


TRANSCRIBED BY RUDY GUZMAN


guzman_84@hotmail.com




    there's a picture on my wall    of a boy who just...                                         
e:-2------------------------------0---------------------------|
B:-3------------------------------2---------------------------|
G:-2------------------------------2---------------------------|
D:-0------------------------------2---------------------------|
A:-0------------------------------0---------------------------|
E:------------------------------------------------------------|

    without a daddy he is in danger    
e:-2---------------------------------|
B:-3---------------------------------|
G:-2---------------------------------|
D:-0---------------------------------|
A:-0---------------------------------|
E:-----------------------------------|

     he needs an older man stranger  and when he goes to war 
e:-3---------------------------------------------------------|
B:-3--------------------------------3------------------------|
G:-0--------------------------------4------------------------|
D:-0--------------------------------4------------------------|
A:-2--------------------------------2------------------------|
E:-3---------------------------------------------------------|





jenna maroney - balls



2 steps down

:----------------------------------------------|
:----------------------------------------------|
:----------------------------------------------|
:----------------------------------------------|
:-----------2--2-2-2------------------2--2-2-2-|
:-2-2--5-5------------5--0--2-2--5-5-----------|

:----------------------------------------------|
:----------------------------------------------|
:----------------------------------------------|
:----------------------------------------------|
:-----------2--2-2-2------------------2--2-2-2-|
:-2-2--5-5------------5--0--2-2--5-5-----------|

:----------------------------------------------|
:----------------------------------------------|
:----------------------------------------------|
:----------------------------------------------|
:-----------2--2-2-2------------------2--2-2-2-|
:-2-2--5-5------------5--0--2-2--5-5-----------|

:----------------------------------------------|
:----------------------------------------------|
:----------------------------------------------|
:----------------------------------------------|
:-----------2--2-2-2------------------2--2-2-2-|
:-2-2--5-5------------5--0--2-2--5-5-----------|





hillo son mex

14/10/12
Tap to rate this tab
 
# A B C D E F G H I J K L M N O P Q R S T U V W X Y Z