Song name
# A B C D E F G H I J K L M N O P Q R S T U V W X Y Z

Misc Television - Kfc Ad - Run Baby Run chords

Highlighted       Show chord diagrams
Run baby Run - KFC ad


Chords

Change from 'D' to 'G' throughout song with the pause parts before the chorus

D

Everybody hang back

G

Running up the hill



Chorus 

G

Run baby run,  baby run, run baby run, baby run

D

Everybody get back, get back, everybody get back, get back


Repeat for 2nd verse and chorus




Main guitar lick


      D
e|-------------------------------------------------------------------|
B|---7---7---7---7---7---7---7---7---7---7---7---7---7---7---7---7---|
G|-----7---7---7---7---7---7---7---7---7---7---7---7---7---7---7---7-|
D|-------------------------------------------------------------------|
A|-------------------------------------------------------------------|
E|-------------------------------------------------------------------|


      G
e|-------------------------------------------------------------------|
B|---8---8---8---8---8---8---8---8---8---8---8---8---8---8---8---8---|
G|-----7---7---7---7---7---7---7---7---7---7---7---7---7---7---7---7-|
D|-------------------------------------------------------------------|
A|-------------------------------------------------------------------|
E|-------------------------------------------------------------------|
Tap to rate this tab
# A B C D E F G H I J K L M N O P Q R S T U V W X Y Z