Song name
# A B C D E F G H I J K L M N O P Q R S T U V W X Y Z

Misc Television - Fox - Football Theme tab

e-------------------------------------------------|
b-------------------------------------------------|
g-------------------------------------------------|
d-------------------------------------------------|
a-----------------10~---------------------11~-----|
E--8-10-11--10-8----------8-10-11--10-8-----------|

e------------------------------------------|
b------------------------------------------|
g------------------------------------------|
d---------------------------10-9~----------|
a-------------------8-10-11----------------|
E--8-10-11--10-8---------------------------|

e---------------------------------------------------|
b---------------------------------------------------|
g---------------------------------10----------------|
d--10-12-13---10-12-13---10-12-13------12~----------|
a---------------------------------------------------|
E---------------------------------------------------|

e---------------------------------------------------------------10~----|
b-----------------------------------------------------11-13-13---------|
g---------------------------------12-10-----13-12-13-------------------|
d--10-12-13---10-12-13---10-12-13---------12---------------------------|
a----------------------------------------------------------------------|
E----------------------------------------------------------------------|

Go Seahawks!
Tap to rate this tab
 
# A B C D E F G H I J K L M N O P Q R S T U V W X Y Z