Song name
# A B C D E F G H I J K L M N O P Q R S T U V W X Y Z

Misc Television - Firefly Theme tab

Salut to all Firefly ans out there :)

This tab is based on very cool youtube tutorial of somehow instrumental version of 
Ballad of Serenity: 
http://www.youtube.com/watch?v=j6ZzVV3xJd4 

I only prepared tabs so it's a bit easier to play but all credits should go to DanBennetto.

Chords Used (Rhythm):
 
 G9   C    D    A    E
-3-  -0-  -2-  -0-  -0-
-3-  -1-  -3-  -2-  -0-
-0-  -0-  -2-  -2-  -1-
-0-  -2-  -0-  -2-  -2-
-2-  -3-  -X-  -0-  -2-
-3-  -X-  -X-  -X-  -0-

 Capo 3rd fret

E|-------------------------------------------------|
B|-------------------------------------------------|
G|-------------------------------------------------|
D|-------------------------------------------------|
A|---------0h3b-p0---------------------------------|
E|---0h3b------------------------------------------|

A            G9
Take my love, take my land
D               A      E
Take me where I cannot stand

C             G
I don't care, I'm still free 
D                  A        E
You can't take the sky from me 


E|-0-------0---------------------------------------|
B|---3p0-------------------------------------------|
G|-------1-----------------------------------------|
D|-------------------------------------------------|
A|-------------------------------------------------|
E|-------------------------------------------------|

A           G9
Take me out to the black 
D                 A      E
Tell them I ain't comin' back 

E|-------------------------------------------------|
B|-------------------------------------------------|
G|-------------------------------------------------|
D|-------------------------------------------------|
A|----------7--5~~~~-------------------------------|
E|--5/7--5-----------------------------------------|

C                 G9
Burn the land and boil the sea 
D                  A        E
You can't take the sky from me 

E|-0-------0------0---------0-0-0-0--3-3-----------|
B|---3p0--------------------1-1-1-1--3-3-----------|
G|-------1------------------0-0-0-0--0-0-----------|
D|--------------------------2-2-2-2--0-0-----------|
A|---------------------0h2--3-3-3-3--1-1-----------|
E|------------------h3---------------2-2-----------|

E|------0h3p---------------------------------------|
B|-0h3--------0h3p---------------5--------5-----7h8|
G|------------------0h2----------------------------|
D|----------------------0h2--2/4---4--4/5---5/7----|
A|-------------------------------------------------|
E|-------------------------------------------------|

A                G9
There's no place I can be 
D             A     E
Since I found Serenity 

E|-0-------0---------------------------------------|
B|---3p0-------------------------------------------|
G|-------1-----------------------------------------|
D|-------------------------------------------------|
A|-------------------------------------------------|
E|-------------------------------------------------|

C                  G9        D
You can't take the sky from me...

E|----0---------0----------------------------------|
B|-3------------2----------------------------------|
G|------2p------2----------------------------------|
D|---------2p---2----------------------------------|
A|--------------0----------------------------------|
E|--------------0----------------------------------|


| /  slide up
| \  slide down
| h  hammer-on
| p  pull-off
| ~  vibrato
| +  harmonic
| x  Mute note
Tap to rate this tab
# A B C D E F G H I J K L M N O P Q R S T U V W X Y Z