Song name
# A B C D E F G H I J K L M N O P Q R S T U V W X Y Z

Misc Television - Odd Couple Theme tab

e------------------------------------------------------
B------------------------------------------------------
G------------------------------------------------------
D---10-10-8-10-8-6-8-6-5-6-3-10-10-8-10-8-6-8-6-5-6-3--
A--8-------------------------8-------------------------
E-8----------------------------------------------------

e-----------------------------------------------------------------
B-----------------------------------------------------------------
G-5-------5------10-10-8--5-------5------10-10-8------------------
D--6-8-6-8-6-8-10-------10-6-8-6-8-6-8-10-------10-8-6-6-6-6-8-10-
A-----------------------------------------------------8-8-8-------
E-----------------------------------------------------------------
Tap to rate this tab
# A B C D E F G H I J K L M N O P Q R S T U V W X Y Z