Song name
# A B C D E F G H I J K L M N O P Q R S T U V W X Y Z

Misc Television - Flashpoint Theme tab

High part meant to be played by a piano-

e]--5---5---3---3---1-0-----|
B]-3-3-3-3-3-3-3-3-3---1-3--|
G]------------------------2-|
D]--------------------------|
A]--------------------------|
E]--------------------------|

Low part also played by a piano-

e]---------------|
B]---------------|
G]---------------|
D]-0-------------|
A]--1-0---1-0----|
E]-----0-3----0--|

The intro is played the low part, then both the high and low parts together.


Note- this is the version taken directly from the theme played during the show, not the 
full song released later.
Tap to rate this tab
# A B C D E F G H I J K L M N O P Q R S T U V W X Y Z