Song name
# A B C D E F G H I J K L M N O P Q R S T U V W X Y Z

Misc Television - Star Trek - The Inner Light tab

The little flute song Captain Picard plays. I think it's mostly right. Melody may
not be written properly, so you'll just have to listen and play along.

E|-----------------------------6------|
B|-----------------------6---6-----8--|
G|-------------8------8---------------|
D|-8---6---5--------------------------|
A|------------------------------------|
E|------------------------------------|

E|-----6-8---6-----------------------|
B|-6-------------9---8-9-8-----------|
G|---------------------------8-------|
D|-------------------------------10--|
A|-----------------------------------|
E|-----------------------------------|

E|----------------------------6-8---6--|
B|------------------------6------------|
G|-------------8------8----------------|
D|-8---6---5---------------------------|
A|-------------------------------------|
E|-------------------------------------|

E|-8---10---11---10---8---10-----------|
B|-----------------------------11---8--|
G|-------------------------------------|
D|-------------------------------------|
A|-------------------------------------|
E|-------------------------------------|

E|------------------------------------|
B|------------------------------------|
G|-5---7---8---7---5---7-------5-7-5--|
D|-------------------------8----------|
A|------------------------------------|
E|------------------------------------|
Tap to rate this tab
 
# A B C D E F G H I J K L M N O P Q R S T U V W X Y Z