Song name
# A B C D E F G H I J K L M N O P Q R S T U V W X Y Z

Misc Television - Sorario Days Theme tab

This is to cover the vocal melody. Listen to the song for the correct timing

|-------------------------------------------------------------------|
|-/7------/7-7-----------------------/7------/7-7----------------7--|
|----9-9-------9-9--9-7-7---6-7S9-7-----9-9-------9-9--7-9-7-9-7----|
|-------------------------7-----------------------------------------|
|-------------------------------------------------------------------|
|-------------------------------------------------------------------|


|------------------------------------------------------------------|
|-7------7-7-----------------------/7------/7-7----------------7---|
|---9-9------9-9--9-7-7---6-7S9-7-----9-9-------9-9--9-9-9-8h9-----|
|-----------------------7------------------------------------------|
|------------------------------------------------------------------|
|------------------------------------------------------------------|


|-------------------------------------------------------------------------------|
|---10-10-------------7-8-7--10-10-8-7h8-7-5--10-10-------------7-8-7-5-3S7-8-8-|
|-7-------7-7-7---7-9-------------------------------7-7-7---7-9-----------------|
|---------------9-----------------------------------------9---------------------|
|-------------------------------------------------------------------------------|
|-------------------------------------------------------------------------------|


|---------------------------10-9--------------------------------------|
|---10-8-7-8-10--8-7-8-10-7------7--7-8-10-10-10-8-7-------------7----|
|-7--------------------------------------------------9-9-9-9-7h9------|
|---------------------------------------------------------------------|
|---------------------------------------------------------------------|
|---------------------------------------------------------------------|


|---------------------------10-9----------------------9-10-9-9-9-7-10----|
|---10-8-7-8-10--8-7-8-10-7------7--7-8-10-10-10-11-7--------------------|
|-7----------------------------------------------------------------------|
|------------------------------------------------------------------------|
|------------------------------------------------------------------------|
|------------------------------------------------------------------------|


|------------------------------------|
|-8-7-8S10------8-7-8S10--------7----|
|----------7-7-----------7-9--9------|
|------------------------------------|
|------------------------------------|
|------------------------------------|
Tap to rate this tab
# A B C D E F G H I J K L M N O P Q R S T U V W X Y Z