Song name
# A B C D E F G H I J K L M N O P Q R S T U V W X Y Z

Misc Television - Parks And Recreation Theme tab

Amazing show, but i noticed the other tabs were all over the place. This is the 
same notes but you don't have to jump around the neck so much.

e|---------------------------------------------------------------------------|
B|---------------------------------------------------------------------------|
G|-----7-5-4-5----9-7----10----10-9-7-9----9-7----7----7---------------------|
D|--------------------10-----------------------10--------10-9-10-------------|
A|---------------------------------------------------------------------------|
E|---------------------------------------------------------------------------|

e|---------------------------------------------------------------------------|
B|---------------------------------------------------------------------------|
G|-9-7----20----10-9-7-9----9-9-7-5------------------------------------------|
D|-----10---------------------------6-----6------6---6-7-9-7----7-7-9-10-----|
A|-----------------------------------------------------------------------8---|
E|---------------------------------------------------------------------------|

e|---------------------------------------------------------------------------|
B|-----------------------------10-8------------12--12--10-10--8-8--6-6-------|
G|----------------------7-9-10------10--9--7---12--12--10-10--9-9--7-7-------|
D|---------7-----7-9-10------------------------12--12--10-10--9-9--7-7-------|
A|-8--8-10----10-------------------------------10--10---8--8--7-7--5-5-------|
E|---------------------------------------------------------------------------|

e|---------------------------------------------------------------------------|
B|---------------------------------------------------------------------------|
G|-9-7----10----10-9-7-------------------------------------------------------|
D|-----10---------------6------6---6-7-9-7----7--7-9-10----------------------|
A|------------------------------------------------------8--------------------|
E|---------------------------------------------------------------------------|

e|---------------------------------------------------------------------------|
B|---------------------------------------------------------------------------|
G|---------------------------------------------------------------------------|
D|---------7---------------7-9-------------6-7----7-7-9-10-------------------|
A|-8--8-10---10-----10--10-----7----7--7-9-----------------8-----------------|
E|---------------------------------------------------------------------------|

e|---------------------------------------------------------------------------|
B|---------------------------------------------------------------------------|
G|---------------------------------------------------------------------------|
D|---------7--10----9------10------------------------------------------------|
A|-8--8-10----10----10-----10------------------------------------------------|
E|---------------------------------------------------------------------------|
Tap to rate this tab
# A B C D E F G H I J K L M N O P Q R S T U V W X Y Z