Song name
# A B C D E F G H I J K L M N O P Q R S T U V W X Y Z

Misc Television - Jeopardy tab

|-----3----------3--------|----3-----3--7--5--3-2--0|
|--3-----3----3-----3-----|-3-----3-----------------|
|-----------0-------------|-------------------------|
|-------------------------|-------------------------|
|-------------------------|-------------------------|
|-------------------------|-------------------------|

|-------3---------3-------|-3--0--------------------|
|--3--3---3-----3---3-----|-------3-1--0------------|
|-----------0-0-----------|----------------2--0-----|
|-------------------------|-------------------------|
|-------------------------|-------------------------|
|-------------------------|-------------------------|
Tap to rate this tab
 
# A B C D E F G H I J K L M N O P Q R S T U V W X Y Z