Song name
# A B C D E F G H I J K L M N O P Q R S T U V W X Y Z

Misc Television - Kyocera Commercial tab

Aralia Spinosa
Written by Tango Alpha Tango
Featured on Kyocera commercial

Tab submitted by: Harold Schaefer
Email: schaefeh_19440@yahoo.com

Tab notations are not exact. Listen to the following link to listen to the song 
and get the pattern and strumming down.
Youtube: http://www.youtube.com/watch?v=ZvIpavKtFN4

Tab Notes:
Tuning: Standard
h = hammer on
P = pull off

Capo 4

Intro:

  Em                 
|----------------------|
|----------0----0---0--|
|-----------0-----0----| 4x
|------0h2------2---2--|
|--0h2----------2---2--|
|----------------------|

Verse:

  Em                 
|----------------------|
|----------0----0---0--|
|-----------0-----0----| 2x
|------0h2------2---2--|
|--0h2----------2---2--|
|----------------------|

   C                 
|----------3---3--|
|--1--p0h1---1----|
|--0---0-----0----| 2x
|--2--------------|
|--3---3-----3----|
|-----------------|

   Am7               D7/F#    
|----------3---3--|-----------|
|--1--p0h1---1----|--1--------|
|--0--------------|--2--------|
|--2--------------|--0--------|
|--0--------------|--0--------|
|-----------------|--2--------|

   G           B7    
|-----------|---------------|
|--0--------|--0----0---0---|
|--0--------|--2--2---2-----|
|--0--------|--1----1---1---|
|--2--------|--2----2---2---|
|--3--------|---------------|

Verse 2 (same chord progression as 1st verse)

Instrumental (same as Intro with clapping)

Verse 3 (same chord progression as 1st verse)

Verse 4 (same chord progression as 1st verse)
 
Outro (Repeat with adlib lyrics)
Em7 - 2 measures, C - 2 measures, G - 1 measure, D/F# - 1 measure

Chords are:

Em7      C      G       D/F#
022030 x32010  32000x  20023x
Tap to rate this tab
# A B C D E F G H I J K L M N O P Q R S T U V W X Y Z