Song name
# A B C D E F G H I J K L M N O P Q R S T U V W X Y Z

Misc Television - The Munsters Theme tab

e[--------------]
B[--------------]
G[--------------]
D[--------------]
A[---1-2----1-2-]
E[-0------0-----]

e[--------------12---8-7-----7-------------------]
B[----8---11-12----------10----10-8---10-8-7-----]
G[--9---9------------------------------------9-7-]
D[-----------------------------------------------]
A[-----------------------------------------------]
E[-----------------------------------------------]

e[--------------]
B[--------------]
G[--------------]
D[--------------]
A[---1-2----1-2-]
E[-0------0-----]

e[-------------12---8-7-----------7-----------]
B[---8---11-12----------10---8-10-------------]
G[-9---8----------------------------------6-8-]
D[-----------------------------------9--9-----]
A[--------------------------------------------]
E[--------------------------------------------]

e[--------------]
B[--------------]
G[--------------]
D[--------------]
A[---1-2----1-2-]
E[-0------0-----]

e[--------------------15\-------5--------------]
B[-3-3-3--------------------------8--7-8-5-7-4-]
G[-------5--4-5---4-0--------------------------]
D[--------------7-----------7-7----------------]
A[---------------------------------------------]
E[---------------------------------------------]

e[-------------12-8-7-----7--------]
B[---8---11-12--------10----10-8---]
G[-9---9-------------------------9-]
D[---------------------------------]
A[---------------------------------]
E[---------------------------------]

e[-19-17-15--------------10-10--13p12p10--------]
B[----------17-----------10-10------------11-12-]
G[---------------9h10h11------------------------]
D[----------------------------------------------]
A[----------------------------------------------]
E[----------------------------------------------]

e[-------------10---------------------------]
B[----------12------------------------------]
G[-------12-------------14--12-11-12-9-11-8-]
D[----12------------7-7---------------------]
A[-10---------------------------------------]
E[------------------------------------------]

e[-----------12-8-7------7----------7--12-]
B[--8--11-12--------10-----10-8-----7--12-]
G[-9-9--------------------------9---8--12-]
D[----------------------------------7--14-]
A[----------------------------------9--14-]
E[----------------------------------7--12-]
Tap to rate this tab
 
# A B C D E F G H I J K L M N O P Q R S T U V W X Y Z