Song name
# A B C D E F G H I J K L M N O P Q R S T U V W X Y Z

Misc Television - The Rifleman Theme Song tab

SONG:     THE RIFLEMAN THEME SONG
MUSIC BY: HERSCHEL BURKE GILBERT
TAB BY:   DON CZARSKI
EMAIL:    GUITARZAN7@HOTMAIL.COM


                 THE RIFLEMAN THEME SONG
                 HERSCHEL BURKE GILBERT


NOTE:
This is played at the BEGINNING OF THE SHOW
(basically a condensed version of the theme)

THE RIFLEMAN'S rifle firing - then the announcer 
saying "THE RIFLEMAN" 

begin playing:
 
E ------------------|-----------|---------------|
B ------------------|-----------|---------------|
G ------------------|-----------|---------------|
D ----------4-7-4---|-----------|--------4-7----|
A --------5-------5-|-7-7-4---5-|--7-7-5--------|
E ------5-----------|-------5---|---------------|


E ---------------|---------------|
B ---------------|---------------|
G ---------------|---4---6---7---|
D -7-7-7-5---5-4-|-4---5---7-----|
A ---------7-----|---------------|
E ---------------|---------------|


NOTE:
This is played at the END OF THE SHOW and a lot
longer version of the theme. This is the one I
like best and the more familiar of the two.


E ------------------|-----------|---------------|
B ------------------|-----------|---------------|
G ------------------|-----------|---------------|
D ----------4-7-4---|-----------|-----------4-7-|
A -1-2-4--5-------5-|-7-7-4---5-|-5-7-7-7-5-----|
E ------------------|--------5--|---------------|


E ---------------|---------------|-----------------|
B ---------------|---------------|-----------------|
G ---------------|-----4-4-4-----|---4---6---7-----|
D -7-7-7-5---5-4-|-4-5-------7-4-|-7---5---7---7-4-|
A ---------7-----|---------------|-----------------|
E ---------------|---------------|-----------------|


E -----------------|
B -----------------|
G -----4-----------|
D -4-7---7-5-4-----|
A -------------7-5-|
E -----------------|


E ------------------|-----------|---------------|
B ------------------|-----------|---------------|
G ------------------|-----------|---------------|
D ----------4-7-4---|-----------|-----------4-7-|
A -1-2-4--5-------5-|-7-7-4---5-|-5-7-7-7-5-----|
E ------------------|--------5--|---------------|


E ---------------|---------------|-----------------|
B ---------------|---------------|-----------------|
G ---------------|-----4-4-4-----|---4---6---7-----|
D -7-7-7-5---5-4-|-4-5-------7-4-|-7---5---7---7-4-|
A ---------7-----|---------------|-----------------|
E ---------------|---------------|-----------------|


E -----------------|
B -----------------|
G -----4-----------|
D -4-7---7-5-4-----|
A -------------7-5-|
E -----------------|


E --------------|-----------|
B --------------|-----------|
G --------------|-----------|
D ------4-7-4---|-----------|
A ----5-------5-|-7-7-4---5-|
E --5-----------|-------5---|
Tap to rate this tab
# A B C D E F G H I J K L M N O P Q R S T U V W X Y Z