Song name
# A B C D E F G H I J K L M N O P Q R S T U V W X Y Z

Misc Television - Wallace And Gromit Theme tab

THEME TUNE: Wallace & Gromit
COMPOSER: Julian Nott

This is the tab to one of Britain's most awesome theme tunes!
The first part is played through the key of C.

e|-----------------|-----------------|-----------------|-----------------|
B|-----------------|-----------------|-----------------|-----------------|
G|-----------------|-----------------|-7---7-9---9-7---|-----------------|
D|-10--8-7-10--8-7-|-10--------------|---10----------10|-9---------------|
A|-----------------|---10------------|-----------------|-----------------|
E|-----------------|-----------------|-----------------|-----------------|
   1   2   3   4     1   2   3   4     1   2   3   4     1   2   3   4   

e|-----------------|-----------------|-----------------|-----------------|
B|-----------------|-----------------|-----------------|-----------------|
G|-----------------|-----------------|-7---7-9---7---9-|-10------10109-7-|
D|-10--8-7-10--8-7-|-10--------------|---10------------|-----10----------|
A|-----------------|---10------------|-----------------|-----------------|
E|-----------------|-----------------|-----------------|-----------------|
   1   2   3   4     1   2   3   4     1   2   3   4     1   2   3   4   

e|-----------------|-----------------|------------------|-----------------|
B|-----------------|-----------------|------------------|-----------------|
G|-10--9-7---109-7-|-10--7-----------|-7---7------------|-----------------|
D|-----------------|-------10--109-10|---10--107-----7--|-7---------------|
A|-----------------|-----------------|-------------10-10|-----------------|
E|-----------------|-----------------|------------------|-----------------|
   1   2   3   4     1   2   3   4     1   2   3   4      1   2   3   4   

e|-----------------|-----------------|-----------------|------------------|
B|-----------------|-----------------|-----------------|------------------|
G|-----------------|-----------------|-----------------|------------------|
D|-7---7-7---------|-----------------|-----------------|------------------|
A|---10------107---|-7---7-8---------|-------7-------7-|-101010-----------|
E|-----------------|---10------108---|-8-5-8-----8-----|------------------|
   1   2   3   4     1   2   3   4     1   2   3   4     1   2   3   4   

e|-7h8-4h5---------|
B|---------5h6-1-2-|
G|----------------0|
D|-----------------|
A|-----------------|
E|-----------------|
   1   2   3   4   

e|-----------------|-----------------|-----------------|-----------------|
B|-----------------|-----------------|-----------------|-----------------|
G|-----------------|-----------------|-7---7-9---9-7---|-----------------|
D|-10--8-7-10--8-7-|-10--------------|---10----------10|-9---------------|
A|-----------------|---10------------|-----------------|-----------------|
E|-----------------|-----------------|-----------------|-----------------|
   1   2   3   4     1   2   3   4     1   2   3   4     1   2   3   4   

e|-----------------|-----------------|-----------------|-----------------|
B|-----------------|-----------------|-----------------|-----------------|
G|-----------------|-----------------|-7---7-9---7---9-|-10------10------|
D|-10--8-7-10--8-7-|-10--------------|---10------------|-----10----------|
A|-----------------|---10------------|-----------------|-----------------|
E|-----------------|-----------------|-----------------|-----------------|
   1   2   3   4     1   2   3   4     1   2   3   4     1   2   3   4   

Key change: D

e|-----------------|-----------------|-----------------|-----------------|
B|-----------------|-----------------|-----------------|-----------------|
G|-7---5-4-7---5-4-|-7---------------|-5-4-5-4---------|-55------2-------|
D|-----------------|---7-------------|---------7-5-7---|-----55------3---|
A|-----------------|-----------------|-----------------|-----------------|
E|-----------------|-----------------|-----------------|-----------------|
   1   2   3   4     1   2   3   4     1   2   3   4     1   2   3   4   

e|-8---------------|
B|-8---------------|
G|-9---------------|
D|-----------------|
A|-----------------|
E|-----------------|
   1   2   3   4      
Tap to rate this tab
# A B C D E F G H I J K L M N O P Q R S T U V W X Y Z