Song name
# A B C D E F G H I J K L M N O P Q R S T U V W X Y Z

Misc Television - Argumental Theme tab

--------------------------------|---------------------------------|
--------------------------------|---------------------------------|
--------------------------------|---------------------------------|
--------------------------------|------------------------8-8-8-8--|
-7-7-6-6-5-5-5-7--7-6-6-5-5-5-5-|-7-7-6-6-5-5-5-7--7-7-7-6-6-6-6--|
-5-5-4-4-3-3-3-5--5-4-4-3-3-3-3-|-5-5-4-4-3-3-3-5--5-5-5----------| x2

-----------------------|-------------------------------|
-----------------------|-------------------------------|
-----------------------|-------------------------------|
-7-7-7-7-7---5-5-5-5-5-|-------------------------------|
-5-5-5-5-5---3-3-3-3-3-|-7-7-7-7-7----6-6-6-6-6-6-6-6--|
-----------------------|-5-5-5-5-5----4-4-4-4-4-4-4-4--|

-----------------------------|-----------------------|
-----------------------------|-----------------------|
-----------------------------|-----------------------|
-----------------------------|-----------------------|
-7-7-6-6-5-5-5-7--7-6-6-5----|-7-7-6-6-5-5-5-3--7----|
-5-5-4-4-3-3-3-5--5-4-4-3----|-5-5-4-4-3-3-3-3--5----|
Tap to rate this tab
# A B C D E F G H I J K L M N O P Q R S T U V W X Y Z