Song name
# A B C D E F G H I J K L M N O P Q R S T U V W X Y Z

Misc Television - My Little Pony - Friendship Is Magic tab

My Little Pony: Friendship Is Magic - Theme Song
Rhythm guitar tab.
Standard tuning. (EADGBe)

e|----------------------------------------------------|
B|----------------------------------------------------|
G|----------------------------------------------------|
D|--4-7-4-----7-----------------------------0---2-----|
A|--------7---------5-7-5-4---------2---4-------------|
E|----------------------------5-----------------------|

e|------------------------------------|
B|------------------------------------|
G|--7---7---9-9-99--------------------|
D|--7---7---9-9-99--9---9---7-7-77----|
A|--5---5---7-7-77--9---9---7-7-77----|
E|------------------7---7---5-5-55----|x2

e|------------------------------------|
B|------------------------------------|
G|------------------------------------|
D|--5-------9-------7-------------7---|
A|--5-------9-------7-------------7---|
E|--3-------7-------5-------------5---|

e|------------------------------------|
B|------------------------------------|
G|------------------------------------|
D|--5-------9-------7---7---7-7-77----|
A|--5-------9-------7---7---7-7-77----|
E|--3-------7-------5---5---5-5-55----|

e|------------------------------------|
B|------------------------------------|
G|--7---7---9-9-99--------------------|
D|--7---7---9-9-99--9---9---7-7-77----|
A|--5---5---7-7-77--9---9---7-7-77----|
E|------------------7---7---5-5-55----|

e|------------------------------------|
B|------------------------------------|
G|------6---7---9---7-----------------|
D|--9---6---7---9---7-----------------|
A|--9---4---5---7---5-----------------|
E|--7---------------------------------|

So simple, but yet sounds so good, I'm surprised I haven't seen a correct tab for this 
yet, so here! have fun!

Don't forget to add a little distortion while playing it, for that crunchy guitar sound.
The start and end are not in the actual theme but I like them so =P.

My Little Pony and its associated music and or characters are copyrighted to Hasbro.

Tab written and uploaded by Crinklecake.
Tap to rate this tab
# A B C D E F G H I J K L M N O P Q R S T U V W X Y Z