Song name
# A B C D E F G H I J K L M N O P Q R S T U V W X Y Z

Misc Television - Parks And Recreation Theme tab

This is the theme arranged for solo guitar.
Time signature 4/4, feel out the tempo.

Each bar starts with a chord, where the bass note is played first as a 
quarter note and the rest as another quarter note. It sounds better if you play
the second half staccato by lifting your hand from the fretboard (not by 
dampening with you pick hand). So for example the first C:


     Q    Q    H         
E||---------------------|
B||-------1-------------|
G||-------0-------------|
D||---------------------|
A||--3------------------|
E||---------------------|
     ^    ^
     |    - Suppress the note so it sounds like an eighth note, 
     |                               duration remains the same
      - Let ring and suppress at the same time as described above


Here's the stuff, enjoy!


     Q    Q    H           Q    Q    H           Q    Q    H         
E||---------------------|-------1-------------|---------------------|
B||-------1-------------|-------1-------------|-------1-------------|
G||-------0-------------|-------2-------------|-------0-------------|
D||---------------------|--3------------------|---------------------|
A||--3------------------|---------------------|--3------------------|
E||---------------------|---------------------|---------------------|


  Q    Q    E   E  E   E     Q    Q    E   E  E  E     Q    Q    E   E  E   E   
--------------------------|-------------------------|--------------------------|
-------0----5p--3---------|------------5p--3-----6--|-------6----6p--5--3h--5--|
-------0-----------5p--0--|-------5-----------5-----|-------5------------------|
--------------------------|-------5-----------------|--3-----------------------|
--------------------------|--3----------------------|--------------------------|
--3-----------------------|-------------------------|--------------------------|


  Q    Q    E   E  E  E     Q    Q    E   E   E  E     Q    Q    E   E  E  E   
-------------------------|--------------------------|-------------------------|
-------5----5p--3-----3--|-------3----3p--1p--0--1--|-------1----5p--3-----6--|
-------5-----------5-----|-------0------------------|-------0-----------5-----|
-------------------------|--------------------------|-------------------------|
--3----------------------|--------------------------|--3----------------------|
-------------------------|--3-----------------------|-------------------------|


  Q    Q    E   E  E   E     Q    Q    E   E  E   E   
--------------------------|--------------------------|
-------6----6p--5--3h--5--|-------5----5p--3---------|
-------5------------------|-------5-----------5p--4--|
--3-----------------------|--------------------------|
--------------------------|--3-----------------------|
--------------------------|--------------------------|


  Q    Q    E   E   E  E     Q    Q    E   E  E  E     Q    Q    E  E   E  E   
--------------------------|-------------------0-----|-------------------------|
------------0h--1h--3--1--|-------1----1h--3--------|---------------0h--1--L--|
-------4------------------|-------2--------------2--|-------2----2------------|
-------6------------------|-------------------------|-------3-----------------|
--------------------------|--0----------------------|-------------------------|
--4-----------------------|-------------------------|--1----------------------|


  E   E  E   E   E  E   E  E     Q    Q    Q    Q        Q    Q    Q    Q     
--------------------0h--1--5--|--3---------0----------|----------------------|
---------0h--1h--3------------|-------6---------3s----|-/8---------8---------|
--0h--2-----------------------|-----------------------|-/7---------7---------|
------------------------------|-----------------------|-/5----5---------5----|
------------------------------|-----------------------|----------------------|
--3---L----------3--L---------|--3---------3----------|----------------------|


  Q    Q    Q    Q       Q    Q    Q    Q       Q    Q    Q    Q     
----------------------|----------------------|----------------------|
--6---------6---------|--5---------5---------|--3---------3---------|
--5---------5---------|--4---------4---------|--2---------2---------|
-------3---------3----|-------2---------2----|-------0---------0----|
----------------------|----------------------|----------------------|
----------------------|----------------------|----------------------|


  Q    Q    E   E  E  E     Q    Q    E   E   E  E     Q    Q    E   E   E  E   
-------------------------|--------------------------|--------------------------|
-------1----5p--3-----6--|-------6----6p--5p--3--0--|------------0h--1h--3p-1--|
-------0-----------5-----|-------5------------------|-------4------------------|
-------------------------|--3-----------------------|-------6------------------|
--3----------------------|--------------------------|--------------------------|
-------------------------|--------------------------|--4-----------------------|


  Q    Q    E   E  E  E     Q    Q    E  E   E   E     Q    Q    E   E   E  E   
-------------------0-----|--------------------------|--------------------------|
-------1----1h--3--------|---------------0h--1p--0--|-------0----0h--1h--3-----|
-------2--------------2--|-------2----2-------------|-------0---------------1--|
-------------------------|-------3------------------|--------------------------|
--0----------------------|--------------------------|--------------------------|
-------------------------|--1-----------------------|--3-----------------------|


  Q    Q    E   E  E  E     Q    Q    E  E   E  E     Q    Q    E  E   E  E   
-------------------------|-------------------------|-------------------------|
-------------------------|---------------0h--1-----|-------------------------|
-------1-----------1--2--|-------2----2------------|---------------0h--2--L--|
-------2----2h--4--------|-------2--------------3--|-------3----3------------|
-------2-----------------|--0----------------------|-------3-----------------|
--0----------------------|-------------------------|--1----------------------|


  Q    Q    Q    Q       W                                      
----------------------|-------------------||
--1----0----0---------|--1----------------||
--0----0----0----0----|--0----------------||
----------------------|-------------------||
--3-------------------|--3----------------||
------------3---------|-------------------||




Duration Legend
---------------
W - whole
H - half
Q - quarter
E - 8th
. - note dotted


Tablature Legend
----------------
L - tied note
x - dead note
g - grace note
(n) - ghost note
h - hammer on
p - pull off
s - legato slide
/ -  slide into from below or out of upwards
Tap to rate this tab
# A B C D E F G H I J K L M N O P Q R S T U V W X Y Z