Song name
# A B C D E F G H I J K L M N O P Q R S T U V W X Y Z

Misc Television - Sendung Mit Der Maus Main Theme tab

----------------------------------------------------------
                             Die Sendung mit der Maus Main Theme
----------------------------------------------------------

Tabbed by: JW
E-mail: basis2000@emailn.de

Tuning: Standard

e----10---------------------------------------------------|
B-11----11----------11-------------------------11---------|
G----------10-10-10----10----------------10-12------------|
D-------------------------12-8-8----8-12------------------|
A--------------------------------10-----------------------|
E---------------------------------------------------------|

e---------------------------------------------------------|
B---------------------------------------------------------|
G-10----12-12----10-10-10----10---12-12----10-10-10----10-|
D----12-------12----------12------------12----------12----|
A---------------------------------------------------------|
E---------------------------------------------------------|

e-------------10------------------------------------------|
B-11-11----11----11-11----11-11-13------------------------|
G-------12-------------12--------------------------10-10--|
D---------------------------------------------------------|
A------------------------------------8-10-8-10-8-8--------|
E---------------------------------------------------------|

e----10---------------------------------------------------|
B-11----11----------11-------------------------11---------|
G----------10-10-10----10----------------10-12------------|
D-------------------------12-8-8----8-12------------------|
A--------------------------------10-----------------------|
E---------------------------------------------------------|

***********************************************************

| /   slide up
| \   slide down
| h   hammer-on
| p   pull-off
| ~   vibrato
| +   harmonic
| x   Mute note
| b   Bend
| pb  Pre-bend
| br  Bend release
| pbr Pre-bend release
| brb Bend release bend
| g   Grace Note
| ()  unemphasized Note

***********************************************************
Tap to rate this tab
# A B C D E F G H I J K L M N O P Q R S T U V W X Y Z