Song name
# A B C D E F G H I J K L M N O P Q R S T U V W X Y Z

Misc Television - Western Bulldogs Theme Song tab

Western Bulldogs Theme Song/Anthem - Guitar Tab

Melody in A Major (Ionian) [E Standard Tuning]

This tab is pretty basic and just gives an idea of the core notes used in the main melody/solo.
You can add in your own extra articulation to match the solo or come up with your own.

[Intro]

e----------------------------------------------------------------|
B----------------------------------------------------------------|
G--9--8-7--6-----------------------------------------------------|
D------------9--7-6-4-2-----2------------------------------------|
A-----------------------2-4--------------------------------------|
E----------------------------------------------------------------|


   Sons  of  the  west.  Red, white and Blue.

e----------------------------------------------------------------|
B----------------------------------------------------------------|
G----------------------------------------------------------------|
D---7-------------------------------------6----------------------|
A--------9----7----9------7-----9----7---------------------------|
E----------------------------------------------------------------|


   We  come out snar-ling, bull-dogs through and through.

e----------------------------------------------------------------|
B----------------------------------------------------------------|
G--7----7---6----------------------------------------------------|
D----------------9----7----7----6-----7--------------------------|
A--------------------------------------------9----7--------------|
E----------------------------------------------------------------|


   Bull-dogs bite, and bull-dogs roar! They give, their ve-ry best!

e----------------------------------------------------------------|
B----------------------------------------------------------------|
G-------------6--------------------------------------------------|
D---7---------------7------------------------------------------6-|
A--------9--------------9----7-----9-----7---------7----9--7-----|
E---------------------------------------------9------------------|

   But you can't beat the boys of the bull-dog breed;

e----------------------------------------------------------------|
B----------------------------------------------------------------|
G-----------6---------------6----------6----------6--------------|
D---7---9---------7----9-------7---9--------7--------------------|
A----------------------------------------------------------------|
E----------------------------------------------------------------|

   They're the team of the migh-ty west!

e----------------7--7--------------------------------------------|
B-----------7-----------10--9---7--------------------------------|
G---9-------------------------------9----------------------------|
D----------------------------------------------------------------|
A----------------------------------------------------------------|
E----------------------------------------------------------------|
Tap to rate this tab
 
# A B C D E F G H I J K L M N O P Q R S T U V W X Y Z