Song name
# A B C D E F G H I J K L M N O P Q R S T U V W X Y Z

Misc Television - Full House Theme tab

Full House Theme

Tabbed by: Seany
E-mail: themindsnexus@hotmail.com


Intro
E|------------------------0-0-0-----------------------------------|
B|-----------------------/5-4-2-----------------------------------|
G|--------------------2----------------------------2--------------|
D|------------------2-2--------------------------2-2--------------|
A|--2--x------2-----0-0----------2--x------2-----0-0--------------|
E|--0--x--3h4---4----------------0--x--3h4---4--------------------|


E riff:
E|----------------------------------|
B|----------------------------------|
G|--------------------2-------------|
D|------------------2-2---------2---|
A|--2--x------2-----0-0-----3h4-----|
E|--0--x--3h4---4-------------------|


Chords:
     EADGBe

C#m  x46654
Abm  466444
A    577655
B    799677
F#m  244222
E    x799xx  (don't use the open E shape, I know it's tempting but you lose the walking 
bass if you do it)
Abm7 464444
A*   x07655
Fm7  131111


E riff
What ever happened to predictability?
E riff
The milk man, the paper boy, evening T.V.
E riff
When did I get to living here? Somebody tell me please
          C#m              Abm
This whole worlds confusing me.

A                     B
Clouds as mean as you ever seen.
      C#m
And a bird who knows your tune.
  A                   F#m
And that little voice inside you wispering.
A                    B
Kid don't sell your dreams so soon.

E     Abm7     C#m    B                     A*
Everywhere you look , everywhere (there's a heart).
There's a heart
                B
A hand to hold onto.

E     Abm7     C#m    B                    A*
Everywhere you look , everywhere There's a face
There's a face
                B
Of somebody who needs you.

E   Abm7      C#m     B
Eveywhere you look,
            A                         Abm
When you're lost out there and you're all alone,
  C#m      Fm7        E         A*
A light is waiting to carry you home,
B
Everywhere you look.

E riff
Everywhere you look.

Ending:

E|-------------------------------------------------------------------------------|
B|-------------------------------------------------------------------------------|
G|--------------------2----------------------------------------------------------|
D|------------------2-2----doo-ba-da-ba--ba-dow---------2-5-2-4-2----2--2--------|
A|--2--x------2-----0-0---------------------------2-2h4--------------2--2--------|
E|--0--x--3h4---4----------------------------------------------------0--0--------|
Tap to rate this tab
 
# A B C D E F G H I J K L M N O P Q R S T U V W X Y Z