Song name
# A B C D E F G H I J K L M N O P Q R S T U V W X Y Z

Misc Television - National Geographic Theme Song - It Takes Over You tab

This is my first tab.I am pretty sure of the chords but the intro may not be accurate.
Please Rate and comment corrections.

Intro
   Dm          G           A     F     G
e||----------------------------------------|
B||3---------------------------------------|
G||--2-5\3-2-0------------0----------------|
D||------------4-0--0-2-3---2-0------------|
A||----------------------------------------|
E||----------------------------------------| 

   D   Em      D           A     Dm     G
e||----------------------------------------|
B||3---------------------------------------|
G||--2-5\3-2-0------------0----------------|
D||------------4-0--0-2-3---2-0------------|
A||----------------------------------------|
E||----------------------------------------|


Em   D      A
  I  see my fate.
Em    D             A
  The world and its circular ways.
Em      D     A
  There is no break. 
Em   D         A
  No fiery sun allowed to fade.
  Dm C          G
  It takes over  you
Em      D     A
  There is no wait. 
Em  D            A
  A moth dressed as a butterfly.
Em  D      A
  A static state. 
Em    D      A 
 Gravity I'm bound to obey.
    Dm    C    G       Bb   C         G
 It takes over you and everything you do.
    Bb    C    G       Bb    C        G
 It takes over you and everything you do.
Tap to rate this tab
# A B C D E F G H I J K L M N O P Q R S T U V W X Y Z