Song name
# A B C D E F G H I J K L M N O P Q R S T U V W X Y Z

Misc Television - Trigger Happy Theme tab

trigger happy tv theme

GUITAR 1

e |---------------------------------------------------------------|
B |---------------------------------------------------------------|
G |--------------------------------------5-4-3-3------------------|
D |---5--3-5-5---5--3-5-5---5--3-5-5---5-4-3-3--------------------|
A |---5--3-5-5---5--3-5-5---5--3-5-5------------------------------|
E |---------------------------------------------------------------|


GUITAR 2

e|---------------------------------------------------------------|
B|---------------------------------------------------------------|
G|---------------------------------------21----21----------------|
D|------------------------------------------20----20-------------|
A|---------------------------------------------------------------|
E|---15\---------15\----------15\--------------------------------|
Tap to rate this tab
# A B C D E F G H I J K L M N O P Q R S T U V W X Y Z