Song name
# A B C D E F G H I J K L M N O P Q R S T U V W X Y Z

Misc Television - Top Gear Theme tab

Top Gear Theme

E--------------9---10---10/12---10---9---------------------------------------|
B---------10--------------------------------10-------------------------------|
G----9-------------------------------------------9---7---6---7---9-----------|
D----------------------------------------------------------------------------|
A----------------------------------------------------------------------------|
E----------------------------------------------------------------------------|

E--------------9---10---10/12---10---9---------------------------------------|
B---------10--------------------------------10-------------------------------|
G----9-------------------------------------------9---7---6---7---9-----------|
D----------------------------------------------------------------------7-----|
A----------------------------------------------------------------------------|
E----------------------------------------------------------------------------|

E--------------9?10---10/12---10---9-----------------------------------------|
B---------10--------------------------------10-------------------------------|
G----9-------------------------------------------9---7---6---7--9/11\9-------|
D----------------------------------------------------------------------------|
A----------------------------------------------------------------------------|
E----------------------------------------------------------------------------|

I?ve been searching everywhere for a good tab for this tune cause it sounds gr8!

Needs loads of distortion though.

My first tab so I hope its right!
Have fun with it!
Tap to rate this tab
# A B C D E F G H I J K L M N O P Q R S T U V W X Y Z