Song name
# A B C D E F G H I J K L M N O P Q R S T U V W X Y Z

Misc Television - Price Is Right Theme tab

This is so cool, I just figured this out and I am so excited.
Actually, this is my New Years Resolution: to learn how to play
the theme song from ?The Price is Right.?
Here it is.

[11-8--------11-8---------------11-13-13-11-13-13-11-13-13---11-8-----------|
[------11/13--------11/13---11-13---------------------------------11/13-----|
[---------------------------------------------------------------------------|
[---------------------------------------------------------------------------|
[---------------------------------------------------------------------------|
[---------------------------------------------------------------------------|


[11--8-------11--8---------15--13------------------------------------------------------|
[------11/13------11/13----------------13---13---13---13--11----9~--11--9---11/13------|
[------------------------------------10---10---10---10--------10-----------------------|
[--------------------------------------------------------------------------------------|
[--------------------------------------------------------------------------------------|
[--------------------------------------------------------------------------------------|

Then it goes into some crazy 70?s synth solo, which I can?t really
figure out. All I can tell you is that it starts on the 20th fret.
Good luck on that. Maybe I will figure it out, maybe not. Either way...

GTW FOREVER!!!
Tap to rate this tab
 
# A B C D E F G H I J K L M N O P Q R S T U V W X Y Z