Song name
# A B C D E F G H I J K L M N O P Q R S T U V W X Y Z

Misc Television - Rugrats Theme tab

Misc Television
Rugrats Theme
Tuning: Standard
Transcribed by Soch Hean

Main Theme:
|------------7--8---7--------------------------7--8--10------------|
|------8-10------------8-10-8------------8-10------------8-10-8----|
|-9-10------------------------10----9-10------------------------10-|
|------------------------------------------------------------------|
|------------------------------------------------------------------|
|------------------------------------------------------------------|

|------------7--8---7--------------------------7--8--10-8-7---------|
|------8-10------------8-10-8------------8-10---------------10-8----|
|-9-10------------------------10----9-10-------------------------10-|
|-------------------------------------------------------------------|
|-------------------------------------------------------------------|
|-------------------------------------------------------------------|

|------------7--8---7--------------------------7--8---/10------------|
|------8-10------------8-10-8------------8-10--------------8-10-8----|
|-9-10------------------------10----9-10--------------------------10-|
|--------------------------------------------------------------------|
|--------------------------------------------------------------------|
|--------------------------------------------------------------------|

|------------7--8---7--------------------------7--8--10-8-7--------------0--|
|------8-10------------8-10-8------------8-10---------------10-8---------1--|
|-9-10------------------------10----9-10-------------------------10------0--|
|------------------------------------------------------------------------2--|
|------------------------------------------------------------------------3--|
|------------------------------------------------------------------------x--|

Outro:
|-7--8------|
|-----------|
|-----------|
|-----------|
|-----------|
|-----------|
Tap to rate this tab
# A B C D E F G H I J K L M N O P Q R S T U V W X Y Z