Song name
# A B C D E F G H I J K L M N O P Q R S T U V W X Y Z

Misc Television - Jonsson Ligan Theme tab

This Is A Swedish TV-program! - Jönsson Ligan
Submitted By: Viktor
EMail: viktora9@hotmail.com


E|-------------3---3---------------3---3---2-----------------------||
B|-1---3---1-----------1---3---1---------------3---3-------3-------||
G|-----------------------------------------------------2-----------||
D|-----------------------------------------------------------------||
A|-----------------------------------------------------------------||
E|-----------------------------------------------------------------||


E|-------------1---1---------------1---1---0-----------------------||
B|-1---3---1-----------1---3---1---------------1---1-------1-------||
G|-----------------------------------------------------0-----------||
D|-----------------------------------------------------------------||
A|-----------------------------------------------------------------||
E|-----------------------------------------------------------------||
Tap to rate this tab
# A B C D E F G H I J K L M N O P Q R S T U V W X Y Z