Song name
# A B C D E F G H I J K L M N O P Q R S T U V W X Y Z

Misc Television - Changing Rooms Theme tab

Tabbed by: ctb
Email: ctb1989@hotmail.com
URL: http://www.freewebs.com/cliffordboulton

Sounds good fast or slow.
e|-----------------------------------|
B|-----------------------------------|
G|-----------------------------------|
D|-----------------0-0-2-2-0-0-2-----|
A|-0-0-2-2-0-0-2-2---------------2\1-|
E|-----------------------------------|

e|-----------------------------------|
B|-----------------------------------|
G|-----------------0-0-2-2-0-0-2-----|
D|-0-0-2-2-0-0-2-2---------------2\1-|
A|-----------------------------------|
E|-----------------------------------|

..and repeat as much as you want
Tap to rate this tab
# A B C D E F G H I J K L M N O P Q R S T U V W X Y Z