Song name
# A B C D E F G H I J K L M N O P Q R S T U V W X Y Z

Misc Television - Viva La Bam Theme tab

Help us improve GuitareTab! Take a short survey!
e:---------------------------------------------------|
B:-13-13-16-16-15-15--------13-13-13-13-13-11-13-----|
G:-------------------12-12-----------------------10--|
D:---------------------------------------------------|
A:---------------------------------------------------|
E:---------------------------------------------------|

e:--------------------------|
B:-13-13-13-13-13-11-13-----|
G:----------------------10--|
D:--------------------------|
A:--------------------------|
E:--------------------------|


e:---------------------------------------------------|
B:-13-13-16-16-15-15--------13-13-13-13-13-11-13-----|
G:-------------------12-12-----------------------10--|
D:---------------------------------------------------|
A:---------------------------------------------------|
E:---------------------------------------------------|

e:--------------------------|
B:-13-13-13-13-13-11-13-----|
G:----------------------10--|
D:--------------------------|
A:--------------------------|
E:--------------------------|
Related for Viva La Bam Theme tab