Song name
# A B C D E F G H I J K L M N O P Q R S T U V W X Y Z

Misc Television - Quiznos Subs Theme tab

Title:Quizno's Subs Commercial Theme
Artist: The Spongemonkeys
Tabbed by:Darian
Email:scotty__13@hotmail.com
Tuning:Standard(EADGBe)

This is a very easy, but catchy little tune and it sounds good.

Main Riff
e|----------------------------------|
B|----------------------------------|
G|----------------------------------|
D|-2--2-2--2-2-2--7-7-7-7--9-9-9-9--|X3
A|-2--2-2--2-2-2--7-7-7-7--9-9-9-9--|
E|-0--0-0--0-0-0--5-5-5-5--7-7-7-7--|

then
e|--------------------------------------------|
B|--------------------------------------------|
G|--------------------------------------------|
D|-11-11-11-11-11-11-11-11--9-9-9-9-9-9-9-9---|
A|-11-11-11-11-11-11-11-11--9-9-9-9-9-9-9-9---|
E|--9--9--9--9--9--9--9--9--7-7-7-7-7-7-7-7---|

Repeat All As Many Times As You Like


| /  slide up
| \  slide down
| h  hammer-on
| p  pull-off
| ~  vibrato
| +  harmonic
| x  Mute note
=============================================================================
Tap to rate this tab
# A B C D E F G H I J K L M N O P Q R S T U V W X Y Z