Song name
# A B C D E F G H I J K L M N O P Q R S T U V W X Y Z

Misc Television - Blue Collar Tv Theme tab

----------------------------------------------------------------------------
			Blue Collar TV INTRO
----------------------------------------------------------------------------
Tabbed by:Mark

Tuning:Standard

e|-------------------------------------------------------------------------|
B|-------------------------------------------------------------------------|
G|----------------------4-5------------------------------------------------|
D|--------------4-5-5-7----------------------------------------------------|
A|------4-5-5-7------------------------------------------------------------|
E|5-5-7---------------------0-3-4------------------------------------------|
                           /\/\/\
                          palm mute
 I like this show a lot so I thought I'd share this with y'all.
Tap to rate this tab
# A B C D E F G H I J K L M N O P Q R S T U V W X Y Z