Song name
# A B C D E F G H I J K L M N O P Q R S T U V W X Y Z

Misc Television - Cillit Bang Theme tab

This is the punk remix of Cillit Bang (the TV commercial). This is my first tab :P Have
fun, I've played this a few times with my band =)

a/b=slide from a to b
*=PM after the note is played

Riff 1: Intro & first verse
E----------------------------------------------------------|
B----------------------------------------------------------|
G----------------------------------------------------------|
D---2*-2*---432*-------------------------------------------|
A---2*-2*---432*-------------------------------------------|
D---2*-2*---432*-------------------------------------------|

Bridge 1: Where the vocals start

E-------------------------------------------------------------|
B-------------------------------------------------------------|
G-------------------------------------------------------------|
D-2--5/8------------------------------------------------------|
A-2--5/8------------------------------------------------------|
D-2--5/8------------------------------------------------------|

Bridge 2: Where the drummer plays differently


E---------------------------------------------------------------|
B---------------------------------------------------------------|
G---------------------------------------------------------------|
D-2*-2*-2*-54--54-2*--------------------------------------------|
A-2*-2*-2*-54--54-2*--------------------------------------------|
D-2*-2*-2*-54--54-2*--------------------------------------------|

Riff 2: 2nd verse
E-------------------------------------------------------------|
B-------------------------------------------------------------|
G-------------------------------------------------------------|
D---2*-2*-5432-2*-7*---2*-2*--5432-2*-5*----------------------|
A---2*-2*-5432-2*-7*---2*-2*--5432-2*-5*----------------------|
D---2*-2*-5432-2*-7*---2*-2*--5432-2*-5*----------------------|

Bridge 3:
E-------------------------------------------------------------|
B-------------------------------------------------------------|
G-------------------------------------------------------------|
D-2*-2*-2*-434*-----------------------------------------------|
A-2*-2*-2*-434*-----------------------------------------------|
D-2*-2*-2*-434*-----------------------------------------------|

...And the dirt is gone!
Tap to rate this tab
 
# A B C D E F G H I J K L M N O P Q R S T U V W X Y Z