Song name
# A B C D E F G H I J K L M N O P Q R S T U V W X Y Z

Misc Television - Eastenders Theme tab

here is the tab for the eastenders theme tune


e|-----------------0-------------------------------------3----------------|
B|--------0--1--3-----1----------1--0--2--0--0--------0-----0--2----------|
G|--0--2----------------------------------------0--0----------------------|
D|------------------------------------------------------------------------|
A|------------------------------------------------------------------------|
E|------------------------------------------------------------------------|

e|-----------------0------------------------------------------------------|
B|--------0--1--3-----1----------1--0--------------0--1--3--0-------------|
G|--0--2-------------------------------2--0--0-----------------2--0-------|
D|----------------------------------------------0-------------------------|
A|------------------------------------------------------------------------|
E|------------------------------------------------------------------------|

hope you liked my tab!
tommo619
Tap to rate this tab
 
# A B C D E F G H I J K L M N O P Q R S T U V W X Y Z